[NEW] Chords Kunci Gitar Vagetoz Betapa Aku Mencintaimu [Tab] Lirik Terjemahan Arti Lagu

e|-------------------------------------------------------- 
B|-15-14-15------14-12-14----15-14-15------12-14-15--17-14
G|-----------12------------11----------14-----------------
D|--------------------------------------------------------
A|--------------------------------------------------------
E|--------------------------------------------------------

e|--------------------------------------------------------
B|-15-14-12--------15-14-15-----17-15-17-----19-17-19-----
G|----------14-12-----------12-----------14-----------16--
D|--------------------------------------------------------
A|--------------------------------------------------------
E|--------------------------------------------------------

e|---------------------------14-----14-15-17--14-15-17--19
B|-15-----14-15-17--14-15-17----17------------------------
G|----16--------------------------------------------------
D|--------------------------------------------------------
A|--------------------------------------------------------
E|--------------------------------------------------------